Friday, December 31, 2010

Symphony X


A Fools Paradise Bass Tab


#----------------------------------PLEASE NOTE---------------------------------#
#This file is the author's own work and represents their interpretation of the #
#song. You may only use this file for private study, scholarship, or research. #
#------------------------------------------------------------------------------#

A FOOL'S PARADISE (Bassline)
As recorded by Symphony X
(From the 2000 Album V)

Transcribed by Linus "Mr.Gul" Abrahamson
  

Words by Allen, Pinnella Music by Romeo, Pinnella

Gtr I (D G C F) - 'Bass'

 Intro
  Q=140
 4/4
               Gtr I
  W            S S S S S S S S S S S S S S S S   S S S S S S S S S S S S Q
|----------||----------------------------------|----------------------------|
|----------||o---------------------------------|----------------------------|
|----------||o---------------------------------|----------------------------|
|----------||--1p0-0-0-0-0-1p0-0-0-0-0-1p0-0-0-|-1p0-0-0-0-0-1p0-0-0-0-0-1--|


  S S S S S S S S S S S S S S S S   S S S S S S S S S S S S S S S S
|---------------------------------|----------------------------------||
|---------------------------------|---------------------------------o||
|---------------------------------|---------------------------------o||
|-1p0-0-0-0-0-1p0-0-0-0-0-1p0-0-0-|-0-0-0-0-1p0-0-0-1p0-1p0-0-0-1p0--||


  S S S S S S S S S S S S S S S S
|---------------------------------||
|---------------------------------||
|---------------------------------||
|-0-0-0-0-0-0-0-0-0-0-0-0-0-0-0-0-||


   Verse
    S S S S S S S S S S S S S S S S   S S S S S S S S S S S S S S S S
||----------------------------------|---------------------------------|
||o---------------------------------|---------------------------------|
||o-7p4-4-4-4-4-7p4-4-4-4-4-4-4-4-4-|-7p4-4-4-4-4-7p4-4-4-4-4-4-4-4-4-|
||----------------------------------|---------------------------------|


                                   1.               2.
  S S S S S S S S S S S S S S S S   H.      Q        H    H
|---------------------------------|-------------||-|-----------|
|---------------------------------|------------o||-|-----------|
|-7p4-4-4-4-4-7p4-4-4-4-4-4-4-4-4-|-2-------3--o||-|-2----0----|
|---------------------------------|-------------||-|-----------|


    $
    S S S S S S S S S S S S S S S S   S S S S S S S S S S S S S S S S
||----------------------------------|---------------------------------|
||o---------------------------------|---------------------------------|
||o-7p4-4-4-4-4-7p4-4-4-4-4-4-4-4-4-|-7p4-4-4-4-4-7p4-4-4-4-4-4-4-4-4-|
||----------------------------------|---------------------------------|


  1.
  S S S S S S S S S S S S S S S S   H.      Q
|---------------------------------|-------------||
|---------------------------------|------------o||
|-7p4-4-4-4-4-7p4-4-4-4-4-4-4-4-4-|-2-------3--o||
|---------------------------------|-------------||

Read More


No comments:

Post a Comment

a

Get information on the songs and the latest articles directly to your email. Register your email now

Enter your email address:

FeedBurner

Recent Comments

Progressive Metal Group

Want to Swap Links? Copy/paste the following HTML code into your blog

Your Ultimate Progressive Metal Resource

Followers

Related Posts Plugin for WordPress, Blogger...