Monday, November 1, 2010

Johann Sebastian Bach



BWV 995 Sarabande Lute Suite No 3 in Gm

SARABANDE - JS BACH LUTE SUITE NO.3 BWV 995
VIEW WITH 9PT COURIER
TAB BY CRAIG HAWKINS MAY 2000
Comments to: craighawkins19@yahoo.com

SLOWLY, WITH EXPRESSION

E-----------|-5---------|-7-----------|-----------|
B-5---------|---6-2-3---|---6-2-3---5-|-3-1-------|
G---5-1-2---|-----------|-------------|-----1-2---|
D-----------|-----------|-------------|-----------|
A-----------|-----------|-------------|---------0-|
E---------1-|---------4-|---------0---|-----------|


E---------6-5-|-----3-1-5-3-|-------------|----------||
B-----6-5-----|---3---------|-6-5-0-1---0-|--------*-||
G---5---------|-------------|---------0---|----------|| REPEAT

D-------------|-------------|-------------|----------||
A-0-----------|-2-----------|-3-----------|-3===---*-||
E-------------|-------------|-----1---3---|----------||



No comments:

Post a Comment

a

Get information on the songs and the latest articles directly to your email. Register your email now

Enter your email address:

FeedBurner

Recent Comments

Progressive Metal Group

Want to Swap Links? Copy/paste the following HTML code into your blog

Your Ultimate Progressive Metal Resource

Followers

Related Posts Plugin for WordPress, Blogger...